Hướng dẫn lên dây đàn Gita.Sưu tầm.

Thảo luận trong 'Trung Tâm Chia Sẻ' bắt đầu bởi kant, 8/5/08.

  1. kant

    kant Ban cố vấn Cấp Cao

    Trước hết Kant nói trước là bài viết này Kant sưu tầm được,ko rõ từ đâu nữa,của bạn GL gì đó viết.Xin cảm ơn bạn đã gởi đến mọi người những kiến thức hay và bổ ích.

    Hướng dẫn lên dây đàn.

    Lên dây cũng như những kỹ thuật khác trong việc học guitar đều cần thời gian và sự tập luyện. Cho nên một người mới tập chơi guitar mà cảm thấy không quen thì đó cũng là chuyện bình thường thôi không có gì đáng lo cả.

    Đa số những người mới tập gita, một trong những việc bở ngở nhất đầu tiên là lên dây đàn. Như những phần học khác, nó cần thời gian để có thể tập và huấn luyện cho mình có một cái cảm giác về âm độ.

    Đối với các bạn mới tập gita, cần phải có một cái máy lên dây. Một cây đàn lên không đúng sẽ không thể nào học được và mình sẽ không bao giờ luyện được cảm giác về âm độ. Một trong những điều vô cùng quang trọng trong việc học gita là luyện và phát truyễn cảm giác âm độ ở lúc đầu. Cách tốt nhất là đàn phải luôn luôn được lên đúng âm độ tiêu chuẩn của nó.

    Từ đó chúng ta có thể nghe quen âm độ này và sau đó với thời gian và kinh nghiện mình có thể nhận ra được nốt nào 'lạc' giúp ta lên dây một cách nhanh chóng và chính xác hơn. Vì vậy, tôi khuyên bạn nên mua một các máy lên dây, nếu chưa có. Những loại lên dây điện tử này không mắt lắm, để đầu tư vào công trình học gita của mình.

    Luôn luôn đánh đờn với dây lên đúng.


    NHỮNG CÁCH LÊN DÂY TIÊU CHUẨN
    Lên Dây Tiêu Chuẩn nghĩa là dùng sự liên hệ của dây đàn để so dây với nhau. Phần này sẽ được giải thích cặn kẽ hơn , vì chúng ta không cần những dụng cụ lên dây.

    Cách này bạn cần biết những notes của sáu dây đàn. Đó là:

    1 ---- E (Dây nhỏ nhất trên đàn)
    2 ---- B
    3 ---- G
    4 ---- D
    5 ---- A
    6 ---- E (Dây Lớn Nhất)

    Đây là một cách rất dể nhớ những dây đàn:
    E--Ép
    B--Bạn
    G--Gái
    D--Đi
    A--Ăn
    E--Ếch

    GL chắc chắn là bạn sẽ có nhiều câu hay, và dễ nhớ hơn của riêng mình.


    Cách thứ I
    Bắt đầu đánh 2 dây này so với nhau, ráng nghe sao cho 2 notes giống nhau. Như sau:

    E--------0--------------------
    B-----------------------------
    G-----------------------------
    D-----------------------------
    A-----------------------------
    E--------0--------------------

    Bấm phím thứ 5 dây số 6, rồi đánh dây số 5. Chỉnh dây số 5 sao cho giống âm dây số 6.
    Dây 5 phím 5 so với dây D.
    Dây D phím 5 so với dây G.
    Dây G Phím 4 so với dây B.
    Dây B phím 5 so với dây E.

    E----------------------------------------0--
    B--------------------------------0---5------
    G------------------------0---4--------------
    D----------------0---5----------------------
    A--------0---5------------------------------
    E----5--------------------------------------


    Cách thứ II
    Cách này cũng tương tự như cách thứ I. Dùng một dây của đàn làm điểm dựa để lên những dây khác . Như sau:

    Bắt đầu bằng cách bấm phím 7 dây E(1) so dây B với note này.
    Bấm phím 3 dây E(1)so với dây G.
    Dây B(2) phím 3 so với dây D.
    Dây G(3) phím 2 so với dây A.
    Dây D(4) phím 2so với dây E.

    E----7-------3------------------------------
    B--------0------------3---------------------
    G----------------0-----------2--------------
    D-----------------------0------------2------
    A--------------------------------0----------
    E---------------------------------------0---

    Sau đó so hai dây E với nhau, ráng nghe và chỉnh hai dây cho giống âm.

    Đừng chuyển qua dây khác cho đến khi nào bạn cảm thấy hai dây nghe giống một âm với nhau. Hai cách trên chúng ta không biết là dây có thật sự đúng theo Chủ Âm của nó không, bởi vì chúng ta không có một note Chủ Âm để dựa vào.

    Tuy nhiên ở lúc này, dây được so đúng với nhau thì tốt rồi. Ngoại trừ bạn chơi chung với những người khác.

    Ngoài hai cách lên dây căn bản này, nó còn một vài cách khác nữa. Nhưng ở lúc đầu chúng ta chưa cần đến làm gì.
    Với thời gian và kinh nghiệm Lên Dây sẽ trở nên dễ và bạn sẽ thấy có sự tiến bộ.


    TÓM TẮT
    Có vài cách để lên dây đàn khác nhau.
    Lên dây tiêu chuẩn, dùng một dây đàn để lên những dây khác.
    Cách 1, chỉ có dây G(3) là bấm phím 4 còn những tất cả những dây khác thì phím thứ 5.
    Cách 2, dùng dây nhỏ so dây lớn.
  2. hackervn1902

    hackervn1902 Nhân viên mới

    Bài hát: Tuổi Hồng Thơ Ngây
    Sáng tác: Không rõ

    Tuổi hồng thơ ngây dưới mái trường tuổi thơ đă đi qua rồi, để
    -----------C-----------Am-------Dm---------------------G7
    lại trong tôi 1 nỗi buồn nói lên tiếng yêu lặng thầm anh dành
    ------C
    cho em. Hm.. Ha...

    --C---------------------------Am----------Dm-------------------G7
    Xưa chúng ta chung trường cùng nhau kết hoa ước hẹn, mà
    --C-----------------------Am-----Dm--------------------G7----------------C--
    sao bỗng dưng em lại bỏ quên hoa, quên t́nh tôi. Em vội ra đi
    -----------Am----------Dm------------------G7------------------C
    trong li biệt tháng năm vẫn trôi qua dần, anh chờ tin em.

    ------------------C-------------Am-------D----------------------G7
    Kỉ niệm trong tôi đă phai mờ giờ em bước đi theo chồng,
    ----------------C------------Am-------Dm--------------G7--------------------C
    bỏ lại trong tôi 1 bóng h́nh nói lên yêu lặng thầm anh dành cho em.

    C------------------Am--------F---------------------Dm-----Am------
    Khi biết tin em rồi ḷng anh bỗng se thắt lại, và khi tiếng chuông
    ---------C--------------------Dm--------------------G7--------------C
    giáo đường chợt ngân vang xe hoa dừng lại. Em là cô dâu
    --------------Am------------Dm-----------------G7----------------------C
    khoác áo hồng sánh vai bước đi bên chồng, t́nh anh đơn côi.

    C-----------------------Am------------F----------------------Dm---------Am-----------
    Hay hát khúc nhạc buồn cùng chung tiếng ca cung đàn, c̣ òn đâu dáng em
    ----------C---------------Dm------------------G7------------------C--------------
    những chiều nhẹ đưa bước chân phù du. Êm đềm trôi qua khi em theo
    --Am---------Dm-------------------------G7-----------------C
    chồng nhớ sao những khi tan trường. T́nh anh bơ vơ


    Anh em nào biết đánh dùm bài nhạc ko lời bài này cho em với nha !
  3. hackervn1902

    hackervn1902 Nhân viên mới

    Tui có bài này nè, các bạn nào học guitar đệm bài này dễ lắm, có 4 găm thôi,
    bắt đầu dzô nè, G7 - C - Am - Dm - G7-... cứ thế chạy dây thôi, tới chỗ điệp khúc có thêm 1 găm
    C-Am-DM-F-C-G7-C... dễ ko nèo, tui có Tab của nó nè, các bạn nghe thử nhé, do chính tui viết Tab đó, hì hì O_O
    -------------------------------------------------------------
    Track 1
    Tuoi hong tho ngay duoi mai truong
    C
    S
    Q Q Q Q Q Q Q Q Q H Q Q
    E||----------------------|------------0--------------|-----------------------|
    B||----------------------|-------1---------1---------|-----------------------|
    G||----------------------|--0-------------------0----|-----------------------|
    D||----------------------|---------------------------|-----------------------|
    A||-------0----2----3----|---------------------------|--3--------2----0------|
    E||--3-------------------|---------------------------|-----------------------|


    tuoi tho
    Am Dm
    Q Q Q Q Q Q Q Q Q Q Q Q
    ------------0--------------|------------|------------1--------------|
    -------1---------1---------|------------|-------3---------3---------|
    --2-------------------2----|------------|--2-------------------2----|
    ---------------------------|-------0----|---------------------------|
    ---------------------------|--0---------|---------------------------|
    ---------------------------|------------|---------------------------|


    da qua di roi
    G7
    Q Q Q Q Q Q Q Q Q
    ----------------------|------------1--------------|
    ----------------------|-------0---------0---------|
    ----------------------|--0-------------------0----|
    --0-------------------|---------------------------|
    -------2----0---------|---------------------------|
    -----------------3----|---------------------------|

    bo lai trong toi
    C
    S
    Q Q Q Q Q Q Q Q Q
    ----------------------------------|------------0--------------|
    ----------------------------------|-------1---------1---------|
    ----------------------------------|--0-------------------0----|
    ----------------------------------|---------------------------|
    -------------------0----2----3----|---------------------------|
    --3-------------------------------|---------------------------|


    mot dang hinh thang nam
    Am
    H Q Q Q Q Q Q Q Q Q
    --------------------------|------------0--------------|-----------------|
    --------------------------|-------1---------1---------|-----------------|
    --------------------------|--2-------------------2----|-----------------|
    --------------------------|---------------------------|--2---------0----|
    --3-------------2----0----|---------------------------|-----------------|
    --------------------------|---------------------------|-----------------|


    cu troi dan mai
    Dm G7
    Q Q Q Q Q Q Q Q Q Q Q Q Q Q
    ------------1--------------|----------------------|------------1--------------|
    -------3---------3---------|----------------------|-------0---------0---------|
    --2-------------------2----|----------------------|--0-------------------0----|
    ---------------------------|--2----0--------------|---------------------------|
    ---------------------------|------------0----2----|---------------------------|
    ---------------------------|----------------------|---------------------------|


    anh cho tin em
    C
    H Q Q Q Q Q Q Q
    --------------------------|------------0---------|
    --------------------------|-------1---------1----|
    --------------------------|--0-------------------|
    --------------------------|----------------------|
    --2-------------2----3----|----------------------|
    -----------3--------------|----------------------|


    Xua chung ta chung truong
    Am
    H Q Q Q Q Q Q Q Q Q
    ------------------------------------------------|------------0--------------|
    ------------------------------------------------|-------1---------1---------|
    --0-------------------------2----0--------------|--2-------------------2----|
    --------------------------------------3----2----|---------------------------|
    ------------------------------------------------|---------------------------|
    ------------------------------------------------|---------------------------|


    cung nhau hai hoa uoc nguyen
    F
    Q Q Q Q Q Q Q Q Q Q
    ------------|------------1---------|------------------------|
    ------------|-------1---------1----|------------------------|
    ------------|--2-------------------|--2---------------------|
    --2----3----|----------------------|-------3----2----0------|
    ------------|----------------------|------------------------|
    ------------|----------------------|------------------------|


    ma nay
    Dm Am
    Q Q Q Q Q Q Q Q Q Q Q Q
    ------------1--------------|------------|------------0--------------|
    -------3---------3---------|------------|-------1---------1---------|
    --2-------------------2----|------------|--2-------------------2----|
    ---------------------------|--0----2----|---------------------------|
    ---------------------------|------------|---------------------------|
    ---------------------------|------------|---------------------------|


    bong dung em lai
    C
    S
    E E Q Q Q Q Q Q Q Q
    -------------------------------------|------------0--------------|
    -------------------------------------|-------1---------1---------|
    -------------------------------------|--0-------------------0----|
    --2/-----------------------0---------|---------------------------|
    -------------------8--7---------3----|---------------------------|
    -------------------------------------|---------------------------|


    bo quen hoa
    Dm
    Q Q Q Q Q Q Q Q
    ------------------------|------------1--------------|
    ------------------------|-------3---------3---------|
    ------------------------|--2-------------------2----|
    -------------------0----|---------------------------|
    --0-----------3---------|---------------------------|
    ------------------------|---------------------------|


    bo quen tinh ta
    G7
    Q Q Q Q Q Q Q Q Q
    ---------------------------------|------------1--------------|
    ---------------------------------|-------0---------0---------|
    ---------------------------------|--0-------------------0----|
    ------------------0--------------|---------------------------|
    --0--------------------0----2----|---------------------------|
    ---------------------------------|---------------------------|

    cứ thế lặp lại thôi, dễ òm à, luyện 1 phút là xong ngay, xách đàn đi kua ẻm cho goài
  4. hackervn1902

    hackervn1902 Nhân viên mới

    Cái link trên cho mấy bác thực hành nha ! Bài của ngwufoi khác ko phải em viết sau này ko chửi nhá !

Chia sẻ trang này